Arpej Çalışmaları

'Akor Tab Nota' forumunda sha. tarafından 21 Ağu 2010 tarihinde açılan konu

Konu etiketleri:
  1. sha.

    sha. ..daha çirkin, daha huysuz

    Arpej Çalışmaları

    Parçayı çalarken sol el akor geçişleri yaparken sağ el hep aynı tarz bir melodi çalar. Yani arpej.

    Parçanın ritmine göre değişik arpejler var. Aşağıda Tab şeklinde 10 tane değişik arpej tekniği gösterdim. Bu çalışmaları yaptığınızda hem parmak alıştırması yapmış hem de 10 tane arpej öğrenmiş olacaksınız.

    Arpej Çalışması I

    İlk arpej çalışmasını tab olarak sunuyorum. Her parmağın bir ismi olduğunu bilirsiniz. Sağ el başparmağımız (p), işaret parmağımız (i), orta parmağımız (m), yüzük parmağımız (a) . Bunu dikkate alarak çalışmalısınız.

    Bu çalışmayı 'p, i, m' 'p, i, m' sağ el parmakları ile çalışınız. Parmaklarınızın uyumu için buna özel ilgi göstermelisiniz.

    E--------0(m)--------0(m)------0--------0---------1---------1---------1------1-
    B----1(i)---------1(i)--------1----------1---------0--------0--------0---------0-
    G--------------0(p)-----------------0-------------------0-------------------0-----
    D---------------------------------------------0------------------0----------------
    A-3(p)------------------3---------------------------------------------------------
    E----------------------------------------------------------------------------------

    E--------1-----------1---------1--------1---------0--------0--------0---------0--
    B----0------------0--------0---------0---------1--------1---------1--------1-----
    G--------------0-------------------0------------------0------------------0--------
    D----------------------------------------------------------------------------------
    A--------------------------------------------3-------------------3----------------
    E-3---------------------3----------------------------------------------------------

    E--------0-----------0---------0--------0----------1---------1---------1-------1-
    B----1------------1--------1---------1----------3----------3--------3--------3---
    G--------------2-------------------2--------------------2------------------2-----
    D---------------------------------------------0------------------0----------------
    A-0----------------------0---------------------------------------------------------
    E---------------------------------------------------------------------------------

    E--------0----------- 0---------0--------0-----------0-----------0---------------
    B----1------------1--------1---------1-----------1-----------1-------------------
    G------------0---------------------0----------------------0----------------------
    D----------------------------------------------------------------------------------
    A---------------------------------------------3-------------------------3---------
    E-3---------------------3---------------------------------------------------------

    Bu çalışmayı hiç hatasız çalabiliyorsanız artık ikinci arpej çalışmasına geçebilirsiniz.
     
  2. sha.

    sha. ..daha çirkin, daha huysuz

    Arpej Çalışması II

    Birinci arpej çalışmamızı 'p i m' şeklinde çalmıştık. Bu çalışmayı 'p, m , i 'p, m, i' sağ el parmakları ile çalışınız. Parmaklarınızın uyumu için buna özel ilgi göstermelisiniz.

    E ----0(m)------0(m)--------0--------0-------1----------1---------1--------1---
    B-------1(i)---------1(i)--------1-------1---------0---------0--------0---------0-
    G ----------0(p)--------------------0-------------------0-----------------0------
    D ------------------------------------------0--------------------0----------------
    A-3(p)-------------------3--------------------------------------------------------

    E ---------------------------------------------------------------------------------
    E ----1--------1----------1--------1-------1------1--------1---------1-----------
    B ------0---------0----------0--------0-------0------0---------0----------0------
    G ----------0-------------------0-----------------0-----------------0-------------
    D ---------------------------------------------------------------------------------
    A ---------------------------------------3---------------3------------------------

    E -3------------------3------------------------------------------------------------
    E ------0--------0--------0--------0----------1----------1---------1--------1----
    B ---------1--------1--------1--------1-----------3----------3--------3--------3-
    G -------------2-----------------2--------------------2-------------------2-------
    D -----------------------------------------0----------------------0----------------
    A --0------------------0-----------------------------------------------------------
    E ----------------------------------------------------------------------------------

    E ------0-----------0----------0----------0------------0------------0-------------
    B----------1----------1-----------1---------1-------------1------------1---------
    G--------------0----------------------0------------------------0------------------
    D----------------------------------------------------------------------------------
    A -------------------------------------------------3-------------------------3-----
    E -3-----------------------3-------------------------------------------------------

    Bu çalışmayı hiç hatasız çalabiliyorsanız artık üçüncü arpej çalışmasına geçebilirsiniz.

    Arpej Çalışması III

    Artık üçüncü arpej çalışmamıza geçmiş bulunmaktasınız. Belirli bir stratejimiz olduğunu anlamış olmalısınız. Arpejde en önemli şey sağ elimizdir. İlk çalışmamız 'p i m' ikinci çalışmamız 'p m i' parmakları ile olmuştu.

    Bu çalışmamızı ile ' p i m i ' 'p i m i' parmakları ile çalışıyoruz. Kesinlikle bu kurala uymaya çalışın. Unutmayın nasıl başlarsa öyle gider.

    E------0(m)--------0-----0-------0------------1--------1-------1-------1-----
    B---1(i)---1(i)---1---1--1--1---1---1-------0---0----0---0---0--0---0----0--
    G--------------0---------------0--------------------0----------------0---------
    D-------------------------------------------0-----------------0-----------------
    A-3(p)-----------------3-------------------------------------------------------
    E--------------------------------------------------------------------------------

    E------1------------1----------1-------1----------0--------0--------0---------0-
    B---0----0------0-----0----0----0---0---0-----1----1---1---1----1---1----1---1
    G------------0----------------------0-------------------0-----------------0------
    D----------------------------------------------------------------------------------
    A---------------------------------------------3------------------3---------------
    E-3-----------------------3-------------------------------------------------------

    E------0----------0-------0---------0---------1---------1----------1----------1-
    B---1----1----1--------1----1----1---1-----3---3----3---3-----3-----3-----3--3
    G-----------2------------------2--------------------2---------------------2------
    D------------------------------------------0-------------------0------------------
    A-0------------------0------------------------------------------------------------
    E----------------------------------------------------------------------------------

    E--------0---------0----------0---------0-------------0--------------0-----------
    B-----1----1----1---1-----1-----1---1---1--------1-----1-------1-------1-------
    G-------------0--------------------0--------------------------0------------------
    D---------------------------------------------------------------------------------
    A-----------------------------------------------3-------------------------------3
    E--3--------------------3---------------------------------------------------------

    Bu çalışmayı hiç hatasız çalabiliyorsanız artık dördüncü arpej çalışmasına geçebilirsiniz.
     
  3. sha.

    sha. ..daha çirkin, daha huysuz

    Arpej Çalışması IV

    Arpej konumuzda dördüncü çalışmamıza kadar geldik. Bu çalışmayı da ' p m i m ' 'p m i m' sağ el parmak sırasına göre çalıyoruz.

    E-----0(m)-----0(m)--0-----0------0---0----0---0----1---1---1--1---1---1--1-1
    B---------1(i)------------1------------1--------1--------0-------0-------0-----0-
    G------------------0-----------------------0-----------------0---------------0---
    D-----------------------------------------------------0---------------0-----------
    A-3(p)--------------------------3-------------------------------------------------
    E---------------------------------------------------------------------------------

    E-----1---1----1---1------1----1----1---1-----0-----0-----0---0---0---0----0-0
    B-------0--------0-----------0---------0----------1-----------1-------1-------1--
    G------------0---------------------0---------------------0------------------0-----
    D----------------------------------------------------------------------------------
    A---------------------------------------------3--------------------3--------------
    E--3--------------------3---------------------------------------------------------

    E----0----0-----0----0-----0----0----0---0----1---1----1---1---1---1---1----1-
    B------1-----------1----------1---------1--------3--------3--------3--------3---
    G------------2----------------------2-----------------2-----------------2--------
    D---------------------------------------------0-----------------0----------------
    A-0----------------------0-------------------------------------------------------
    E---------------------------------------------------------------------------------

    E----0---0----0-----0-----0---0----0---0-------0----0------0-----0------------
    B------1---------1-----------1--------1-----------1------------1---------------
    G-----------0---------------------0-----------------------0---------------------
    D--------------------------------------------------------------------------------
    A--------------------------------------------3----------------------------3-----
    E-3---------------------3--------------------------------------------------------

    Bu çalışmayı hiç hatasız çalabiliyorsanız artık beşinci arpej çalışmasına geçebilirsiniz.

    Arpej Çalışması V

    Bu çalışmayı da sağ elimizin baş parmağı 'p' den sonra (i, m) parmakları aynı anda telleri çekerek yapıyoruz.

    E-----0m--0-----0--0------0--0-----0--0------1--1---1--------1--1-----1--1--
    B-----1i---1-----1--1------1--1-----1--0------0--0---0--------0--0-----0--0--
    G-------------0-------------------0------------------0-----------------0--------
    D---------------------------------------------0--------------0-------------------
    A--3p-------------------3--------------------------------------------------------
    E---------------------------------------------------------------------------------

    E-----1--1----1--1------1--1----1--1-----0--0----0--0-------0--0------0--0--
    B-----0--0----0--0------0--0----0--0-----1--1----1--1-------1--1------1--1--
    G-----------0------------------0-----------------0--------------------0---------
    D--------------------------------------------------------------------------------
    A----------------------------------------3------------------3--------------------
    E--3------------------3----------------------------------------------------------

    E----0--0-----0--0------0--0----0--0-------1--1-----1--1-----1--1------1--1--
    B----1--1-----1--1------1--1----1--1-------3--3-----3--3-----3--3------3--3--
    G-----------2------------------2--------------------2------------------2---------
    D-----------------------------------------0------------------0-------------------
    A-0-------------------0---------------------------------------------------------
    E---------------------------------------------------------------------------------

    E-----0--0------0--0-----0--0----0--0-----------0--0------0--0---------------
    B-----1--1------1--1-----1--1----1--1-----------1--1------1--1---------------
    G------------0------------------0------------------------0----------------------
    D--------------------------------------------------------------------------------
    A---------------------------------------------3----------------------3----------
    E--3-------------------3---------------------------------------------------------

    Bu çalışmayı hiç hatasız çalabiliyorsanız artık altıncı arpej çalışmasına geçebilirsiniz.



    Arpej Çalışması VI

    Bu çalışma da ' p i m__ a m i' sağ el parmak sırasını takip ederek çalıyoruz. Bu arpej Türkçe pop parçaların çoğunda kullanılır.

    E---------0a-----------------0--------------------1------------------1----------
    B------1m---1m-----------1---1---------------0----0-------------0---0--------
    G----0i---------0i-------0---------0---------0---------0--------0---------0-----
    D------------------------------------------0------------------0------------------
    A-3(p)---------------3-----------------------------------------------------------
    E---------------------------------------------------------------------------------

    E-----------1-------------------1---------------------0------------------0-------
    B--------0----0--------------0----0----------------1---1-------------1-----1----
    G-----0----------0-------0------------0---------0---------0-------0-----------0-
    D---------------------------------------------------------------------------------
    A-------------------------------------------3-------------------3----------------
    E--3------------------3----------------------------------------------------------

    E-----------0-----------------0-----------------------1---------------------1---
    B--------1----1-----------1-----1-----------------3-----3---------------3----3--
    G-----2----------2-----2-----------2---------2--------------2-------2----------2
    D------------------------------------------0----------------------0--------------
    A-0-----------------0------------------------------------------------------------
    E---------------------------------------------------------------------------------
    E------------0----------------0--------------------------0-----------------------
    B---------1----1-----------1----1------------------1--------1------------------
    G------0---------0------0----------1----------0-----------------0--------------
    D--------------------------------------------------------------------------------
    A------------------------------------------3----------------------------3-------
    E---3----------------3----------------------------------------------------------

    Bu çalışmayı hiç hatasız çalabiliyorsanız artık yedinci arpej çalışmasına geçebilirsiniz.

    Arpej Çalışması VII

    Bu çalışmayı da ' p a m__ i m a ' sağ el parmak sırasına göre çalıyoruz.

    E----0a----------0a-----0---------0------1--------1---------1-------------1---
    B-------1m---1m----------1----1-----------0---0---------------0------0-------
    G----------0i-----------------0----------------0-------------------0-----------
    D---------------------------------------0---------------0------------------------
    A-3p-----------------3----------------------------------------------------------
    E---------------------------------------------------------------------------------

    E-----1---------1------1---------1-------0---------0---------------0------------
    B--------0---0-----------0----0------------1----1--------------1------1--------
    G----------0----------------0-----------------0--------------0--------------0--
    D--------------------------------------------------------------------------------
    A--------------------------------------3-----------------3----------------------
    E--3----------------3------------------------------------------------------------

    E-----0----------0--------0------------0---------1------------1------1---------1
    B-------1-----1-------------1------1----------------3------3------------3----3--
    G----------2--------------------2------------------------2-----------------2-----
    D---------------------------------------------0--------------------0------------
    A-0-------------------0----------------------------------------------------------
    E---------------------------------------------------------------------------------

    E-----0---------0------0---------0-------0------------0------------------------
    B-------1----1-----------1----1-------------1-----1----------------------------
    G----------0----------------0-------------------0-------------------------------
    D--------------------------------------------------------------------------------
    A-------------------------------------3-----------------------3------------------
    E--3----------------3------------------------------------------------------------

    Bu çalışmayı hiç hatasız çalabiliyorsanız artık sekizinci arpej çalışmasına geçebilirsiniz.
     
  4. sha.

    sha. ..daha çirkin, daha huysuz

    Arpej Çalışması VIII

    Bu çalışmayı da ' p i m i__a i m i ' sağ el parmak sırasına göre çalıyoruz. Bu arpeji Üstad Fikret Kızılok un ' Bu kalp seni unutur mu' isimli parçasında kullanıyoruz. Tabii ki daha birçok parçada da kullanılıyor.

    E-------------0a----------------0-----------------1-------------------1--------
    B-------1m--------1m------1-------1---------0-------0-----------0-------0---
    G----0i----0i---0i----1i---0--0---0---0-----0---0---0--0-------0---0---0---0--
    D-----------------------------------------0-------------------0-----------------
    A-3p--------------------3-------------------------------------------------------
    E---------------------------------------------------------------------------------

    E-------------1-------------------1---------------------1----------------1------
    B-------0---------0---------0----------0----------1---------1-------1------1--
    G----0----0----0---0-----0---0-----0----0-----0----0----0---0---0---0--0---0-
    D---------------------------------------------------------------------------------
    A---------------------------------------------3-------------------3-------------
    E-3---------------------3--------------------------------------------------------

    E----------0------------------0-------------------1---------------------1-------
    B------1-------1---------1--------1----------3--------3----------3---------3----
    G----2--2----2--2-----2---2----2--2------2---2----2---2-----2----2-----2---2-
    D----------------------------------------0-------------------0-------------------
    A-0-----------------0------------------------------------------------------------
    E---------------------------------------------------------------------------------

    E----------0------------------0-----------------------0--------------------------
    B------1-------1---------1----------1-----------1-----------1------------------
    G----0--0---0---0-----0---0-----0----0------0---0------0-----0---------------
    D--------------------------------------------------------------------------------
    A------------------------------------------3---------------------------3--------
    E-3------------------3-----------------------------------------------------------

    Bu çalışmayı hiç hatasız çalabiliyorsanız artık dokuzuncu arpej çalışmasına geçebilirsiniz.

    Arpej Çalışması IX

    Bu çalışmayı da ' p m i m ' 'a m i m' sağ el parmak sırasına göre çalıyoruz.

    E----------0-----------------0-------------------1---------------------1---------
    B----1--1---1--1-----1---1----1---1------0--0---0---0-----0-----0------0--0--
    G------0------0---------0--------0----------0-------0----------0-----------0---
    D---------------------------------------0------------------1---------------------
    A-3----------------3--------------------------------------------------------------
    E----------------------------------------------------------------------------------
    E-----------1----------------------1---------------------0----------------0------
    B----0---0----0---0-------0----0----0---0------1----1---1---1---1---1---1---1-
    G------0---------0-----------0---------0-----------0--------0-------0--------0--
    D---------------------------------------------------------------------------------
    A----------------------------------------------3------------------3---------------
    E--3--------------------3---------------------------------------------------------

    E-----------0-------------------0-----------1-------------------1----------------
    B----1---1---1---1----1-----1-------3---3---3--3------3---3----3-----3-------
    G------2-------2----------2------------2-------2----------2---------2----------
    D----------------------------------0------------------0--------------------------
    A-0------------------0-----------------------------------------------------------
    E---------------------------------------------------------------------------------

    E------------0---------------------0---------------------------0-----------------
    B-----1---1---1----1----1-----1-----1---1---------1------1-----1--1-----------
    G-------0--------0----------0----------0---------------0----------0-------------
    D---------------------------------------------------------------------------------
    A-----------------------------------------------3-------------------------3------
    E--3-------------------3---------------------------------------------------------

    Bu çalışmayı hiç hatasız çalabiliyorsanız artık onuncu arpej çalışmasına geçebilirsiniz.

    Arpej Çalışması X

    Bu çalışmayı da ' p i m a ' 'm a m a' sağ el parmak sırasına göre çalıyoruz.

    E----------0---0---0------------0----0----0----------1--1--1-------1---1----1--
    B-------1---1----1-----------1----1----1-----------0--0--0-------0---0---0----
    G----0---------------------0----------------------0--------------0---------------
    D----------------------------------------------0----------------0-----------------
    A-3---------------------3---------------------------------------------------------
    E----------------------------------------------------------------------------------

    E-------1---1---1----------1----1-----1----------0-----0---0----------0----0---0
    B-----0---0---0---------0----0-----0----------1-----1----1---------1----1----1-
    G---0-----------------0----------------------0--------------------0---------------
    D----------------------------------------------------------------------------------
    A------------------------------------------3--------------------3-----------------
    E-3-----------------3-------------------------------------------------------------

    E----------0----0----0--------0--0--0---------1---1---1---------1---1----1-----
    B-------1----1----1---------1--1--1---------3---3---3---------3---3---3--------
    G----2---------------------2---------------2-----------------2-------------------
    D----------------------------------------0----------------0-----------------------
    A-0---------------------0---------------------------------------------------------
    E----------------------------------------------------------------------------------

    E---------0---0----0-----------0----0----0--------------0----0---0-------------
    B------1----1---1-----------1----1----1--------------1----1----1---------------
    G---0---------------------0------------------------0----------------------------
    D--------------------------------------------------------------------------------
    A-----------------------------------------------3--------------------------------
    E-3--------------------3---------------------------------------------------------

    Ve onuncu arpej çalışmanızı da bitirdiniz. Artık bir parça karşınıza çıktığında yapmanız gereken uygun arpeji seçmek ve sol elinizle de temiz akor geçişi yapmaya çalışmak.
     
  5. Love story

    Love story New Member

    Harikasın :)
    Emeğine sağlık...
     

Bu Sayfayı Paylaş