Demir Demirkan-Var mı Aşktan Öte ?

'Akor Tab Nota' forumunda Love story tarafından 22 Ağu 2010 tarihinde açılan konu

Konu etiketleri:
  1. Love story

    Love story New Member

    Intro solo:
    ---4-1-0------0-----------------------------
    ----------------1-0---0---------------------
    ------------------------2-1-----------------
    --------------------------------------------
    --------------------------------------------
    --------------------------------------------


    --------------------------------------------
    ---------------0-1-0-1-0---0---0------------
    ----2-1-2--1-2-----------2---2---2-1--------
    --------------------------------------------
    --------------------------------------------
    --------------------------------------------

    ------------------------------------------------
    ------------------------------------------------
    -----2-1-2---1-------------1---2-1-2-1------
    ---------------3-2-3---2-3-------------3-2-2
    -------------------------------------------------
    -------------------------------------------------

    Am - C - E - C - Dm - E - Am - C - E - C - Dm - C - E intro.

    E C E
    Düşelim cennetten yeryüzü oyununa
    E C E
    Kanalım sarhoşken şu aşkın yalanına
    E C E
    Gireceksek girelim gel kız günaha
    E C E
    Öleceksek ölelim şimdi şuracıkta


    Am C
    Yağmura, buluta, yıldıza, aya
    E C Dm
    Kara toprağa, düşen yaprağa sor
    E
    Var mı aşktan öte?
    Am C
    Nemli saçlarına, nefes nefesine
    E C Dm
    Şu çırılçıplak kıvrıklan beline sor
    C
    Var mı aşktan öte?
    E
    Varsa Sen söyle.


    E C E
    Düşelim cennetten yeryüzü yalanına
    E C E
    Girelim sarhoışken şu aşkın koynuna
    E C E
    Gireceksek girelim gel kız günaha
    E C E
    Öleceksek ölelim şimdi şuracıkta


    Am C
    Yağmura, buluta, yıldıza, aya
    E C Dm
    Kara toprağa, düşen yaprağa sor
    E
    Var mı aşktan öte?
    Am C
    Nemli saçlarına, nefes nefesine
    E C Dm
    Şu çırılçıplak kıvrıklan beline sor
    C
    Var mı aşktan öte?
    E
    Varsa Sen söyle.


    Arkadaşlar birçok farklı yorumlayan kişi var,fakat ben hem kolaylık,hem de uyum açısından bu şeklini daha uygun görüyorum.....:Frnds:
     

Bu Sayfayı Paylaş